intros

intro de Grande y Fuerte


*La intro del bajo se toka asi, y en toda la estrofa
*INTRO: X4
A----------7-7-7-5-7-8-8-8-7-7-7----
E—5-5-5----------------------------8-7-
////Grande y fuerte es nuestro Dios////
A----------7-7-7-5-7-8-8-8-7-7-7---- X2
E—5-5-5----------------------------8-7-
Revestido en majestad coronado con poder
A—5-5-5-5-5-5-5-5----------------------------------------
E—-----------------------3-3-3-3-3-3-3-3-1-1-1-1-1-1-1-1—
Digno de toda, la adoración
A---------------------------------------------------------
E—17-17-17-17-17-17-17-17-1-1-1-1-1-1-1-1-3-3-3-3-3-3-3-3-
On… . On….
A—-----------2-2-2-2-3-3-3-3-4-4-4-4---
Revestido en majestad coronado con poder
A—5-5-5-5-5-5-5-5-----------------------------------------------
E—-----------------------3-3-3-3-3-3-3-3-1-1-1-1-1-1-1-1—
Toda gloria y honra sean para el
A---------------------------------------------------------
E—17-17-17-17-17-17-17-17-1-1-1-1-1-1-1-1-3-3-3-3-3-3-3-3-
*Luego biene de nuevo la intro
A----------7-7-7-5-7-8-8-8-7-7-7--------
E—5-5-5----------------------------8-7--
*Repite todo de nuevo, después ace la intro. Dos veces mas
y entra a esta parte
//Grande… Fuerte… es nuestro…
A----------7-7-7-5-7-8-8-8-7-7-7-------
E—5-5-5----------------------------8-7-
Diosss //
A----------7-7-7-5-7-8-8-8-7-7-7------- X3
E—5-5-5----------------------------8-7-
///Grande y Fuerte es nuestro Dios///
A--------------------------
E—5-5-3-3-1-1-12-12-12-12--
Grande y fuerte es nuestro Dios ( EN ESTA PARTE SOLOS LAS VOCES)
A------------------------------------------2-2-3-3-4-4-
E-------------------------------------5-5------------------
*Después de esto hay un silencio de un tiempo donde es ocupado por
el Hit-Hat de la Bateria
*Luego Repite el coro
*El solo de Bateria, La cual la hace con los toms, aereos
*Y el final.